ultoporn.com
adaptaciafan.ru Неофициальный сайт группы Адаптация

Мой город будет стоять

Рубрика: Таблатуры Просмотров: 2 710
e---------------------------|
b---------------------------|
g---7-6---7-6---7-6---7-6---|
d-------9-----9-----9-----9-|
a---------------------------|
e---------------------------|

e--------------------------------------------------------------------|
b---------7--------------------------------------10-8-7------------6-|
g---6-7-9---9-7-6---6-7-6-9-6-7-6-6-7-6-9-6-7-6---------9-7-6--------|
d-9-----------------------------------------------------------9-8-9--|
a--------------------------------------------------------------------|
e--------------------------------------------------------------------|

e---------------------------|
b---------------------------|
g---9-7-6-7-6---7-6---7-6---|
d-------------9-----9-----9-|
a---------------------------|
e---------------------------|

дальше идет повторение второй части

Comments are closed.

Интересное в сети

Случайные фотографии

Тур: сентябрь 2008 Москва, клуб Икра 26.04.2009 - Орск, ДК Железнодорожников Тур: март 2008 09.06.2009 - Киев, галерея Мистецький Курінь  Санкт-Петербург, клуб Орландина Урал-Сибирский тур Урал-Сибирский тур Тур: март 2008  Санкт-Петербург, клуб Орландина Тур: сентябрь 2008 Тур: март 2008 31.08.2008 - Актюбинск, клуб Chicago 30. Фестиваль Суховей Москва, клуб Икра Тур: сентябрь 2008 Тур: март 2008 Запись альбома "Песни Любви и Протеста" 09.06.2009 - Киев, галерея Мистецький Курінь
Вся фотогалерея